ISO-10303-21;
HEADER;
FILE_DESCRIPTION(('CATIA V5 STEP Exchange'),'2;1');

FILE_NAME('\\\\stisrv.epfl.ch\\sti-sgm\\sgm-ens\\soubiell\\Enseignement\\ME-101-106 - Construction M\X2\00E9\X0\canique I\\1. Supports de cours\\SW1\\Fichiers sources et illustrations\\Dessin Technique - Introduction - Mod\X2\00E8\X0\les 3D CATIA (exercice 2)\\EXERCICE 2 - PIECE A.stp','2023-10-16T12:13:07+00:00',('none'),('none'),'CATIA Unofficial Packaging Version SP3','CATIA V5 STEP AP203','none');

FILE_SCHEMA(('CONFIG_CONTROL_DESIGN'));

ENDSEC;
DATA;
#5=PRODUCT('EXERCICE 2 - PIECE A','','',(#2)) ;
#1=APPLICATION_CONTEXT('configuration controlled 3D design of mechanical parts and assemblies') ;
#14=PRODUCT_DEFINITION('',' ',#6,#3) ;
#16=SECURITY_CLASSIFICATION(' ',' ',#15) ;
#15=SECURITY_CLASSIFICATION_LEVEL('unclassified') ;
#46=CARTESIAN_POINT(' ',(0.,0.,0.)) ;
#51=CARTESIAN_POINT('Axis2P3D Location',(0.,25.,10.)) ;
#56=CARTESIAN_POINT('Line Origine',(12.5,25.,10.)) ;
#60=CARTESIAN_POINT('Vertex',(0.,25.,10.)) ;
#62=CARTESIAN_POINT('Vertex',(25.,25.,10.)) ;
#65=CARTESIAN_POINT('Line Origine',(0.,17.5,10.)) ;
#69=CARTESIAN_POINT('Vertex',(0.,10.,10.)) ;
#72=CARTESIAN_POINT('Line Origine',(12.5,10.,10.)) ;
#76=CARTESIAN_POINT('Vertex',(25.,10.,10.)) ;
#79=CARTESIAN_POINT('Line Origine',(25.,17.5,10.)) ;
#91=CARTESIAN_POINT('Axis2P3D Location',(0.,10.,10.)) ;
#96=CARTESIAN_POINT('Line Origine',(0.,10.,20.)) ;
#100=CARTESIAN_POINT('Vertex',(0.,10.,30.)) ;
#103=CARTESIAN_POINT('Line Origine',(12.5,10.,30.)) ;
#107=CARTESIAN_POINT('Vertex',(25.,10.,30.)) ;
#110=CARTESIAN_POINT('Line Origine',(25.,10.,20.)) ;
#122=CARTESIAN_POINT('Axis2P3D Location',(0.,10.,30.)) ;
#127=CARTESIAN_POINT('Line Origine',(0.,5.,30.)) ;
#131=CARTESIAN_POINT('Vertex',(0.,0.,30.)) ;
#134=CARTESIAN_POINT('Line Origine',(12.5,0.,30.)) ;
#138=CARTESIAN_POINT('Vertex',(25.,0.,30.)) ;
#141=CARTESIAN_POINT('Line Origine',(25.,5.,30.)) ;
#153=CARTESIAN_POINT('Axis2P3D Location',(0.,0.,30.)) ;
#158=CARTESIAN_POINT('Line Origine',(0.,0.,15.)) ;
#162=CARTESIAN_POINT('Vertex',(0.,0.,0.)) ;
#165=CARTESIAN_POINT('Line Origine',(12.5,0.,0.)) ;
#169=CARTESIAN_POINT('Vertex',(25.,0.,0.)) ;
#172=CARTESIAN_POINT('Line Origine',(25.,0.,15.)) ;
#184=CARTESIAN_POINT('Axis2P3D Location',(0.,0.,0.)) ;
#189=CARTESIAN_POINT('Line Origine',(0.,25.,5.)) ;
#193=CARTESIAN_POINT('Vertex',(0.,25.,0.)) ;
#196=CARTESIAN_POINT('Line Origine',(0.,12.5,0.)) ;
#210=CARTESIAN_POINT('Axis2P3D Location',(25.,0.,0.)) ;
#215=CARTESIAN_POINT('Line Origine',(25.,25.,7.5)) ;
#219=CARTESIAN_POINT('Vertex',(25.,25.,5.)) ;
#222=CARTESIAN_POINT('Line Origine',(25.,7.5,0.)) ;
#226=CARTESIAN_POINT('Vertex',(25.,15.,0.)) ;
#229=CARTESIAN_POINT('Line Origine',(25.,15.,2.5)) ;
#233=CARTESIAN_POINT('Vertex',(25.,15.,5.)) ;
#236=CARTESIAN_POINT('Line Origine',(25.,20.,5.)) ;
#252=CARTESIAN_POINT('Axis2P3D Location',(0.,25.,0.)) ;
#257=CARTESIAN_POINT('Line Origine',(7.5,25.,0.)) ;
#261=CARTESIAN_POINT('Vertex',(15.,25.,0.)) ;
#264=CARTESIAN_POINT('Line Origine',(20.,25.,5.)) ;
#268=CARTESIAN_POINT('Vertex',(15.,25.,5.)) ;
#271=CARTESIAN_POINT('Line Origine',(15.,25.,2.5)) ;
#285=CARTESIAN_POINT('Axis2P3D Location',(0.,0.,0.)) ;
#290=CARTESIAN_POINT('Line Origine',(15.,20.,0.)) ;
#294=CARTESIAN_POINT('Vertex',(15.,15.,0.)) ;
#297=CARTESIAN_POINT('Line Origine',(20.,15.,0.)) ;
#311=CARTESIAN_POINT('Axis2P3D Location',(25.,15.,0.)) ;
#316=CARTESIAN_POINT('Line Origine',(15.,15.,2.5)) ;
#320=CARTESIAN_POINT('Vertex',(15.,15.,5.)) ;
#323=CARTESIAN_POINT('Line Origine',(20.,15.,5.)) ;
#335=CARTESIAN_POINT('Axis2P3D Location',(15.,25.,0.)) ;
#340=CARTESIAN_POINT('Line Origine',(15.,20.,5.)) ;
#352=CARTESIAN_POINT('Axis2P3D Location',(0.,0.,5.)) ;
#52=DIRECTION('Axis2P3D Direction',(-0.,0.,1.)) ;
#53=DIRECTION('Axis2P3D XDirection',(0.,-1.,0.)) ;
#57=DIRECTION('Vector Direction',(1.,0.,0.)) ;
#66=DIRECTION('Vector Direction',(0.,-1.,0.)) ;
#73=DIRECTION('Vector Direction',(1.,0.,0.)) ;
#80=DIRECTION('Vector Direction',(0.,-1.,0.)) ;
#92=DIRECTION('Axis2P3D Direction',(0.,1.,0.)) ;
#93=DIRECTION('Axis2P3D XDirection',(0.,0.,1.)) ;
#97=DIRECTION('Vector Direction',(0.,0.,1.)) ;
#104=DIRECTION('Vector Direction',(1.,0.,0.)) ;
#111=DIRECTION('Vector Direction',(0.,0.,1.)) ;
#123=DIRECTION('Axis2P3D Direction',(-0.,0.,1.)) ;
#124=DIRECTION('Axis2P3D XDirection',(0.,-1.,0.)) ;
#128=DIRECTION('Vector Direction',(0.,-1.,0.)) ;
#135=DIRECTION('Vector Direction',(1.,0.,0.)) ;
#142=DIRECTION('Vector Direction',(0.,-1.,0.)) ;
#154=DIRECTION('Axis2P3D Direction',(0.,-1.,0.)) ;
#155=DIRECTION('Axis2P3D XDirection',(0.,0.,-1.)) ;
#159=DIRECTION('Vector Direction',(0.,0.,-1.)) ;
#166=DIRECTION('Vector Direction',(1.,0.,0.)) ;
#173=DIRECTION('Vector Direction',(0.,0.,-1.)) ;
#185=DIRECTION('Axis2P3D Direction',(1.,0.,0.)) ;
#186=DIRECTION('Axis2P3D XDirection',(0.,1.,0.)) ;
#190=DIRECTION('Vector Direction',(0.,0.,1.)) ;
#197=DIRECTION('Vector Direction',(0.,1.,0.)) ;
#211=DIRECTION('Axis2P3D Direction',(1.,0.,0.)) ;
#212=DIRECTION('Axis2P3D XDirection',(0.,1.,0.)) ;
#216=DIRECTION('Vector Direction',(0.,0.,1.)) ;
#223=DIRECTION('Vector Direction',(0.,1.,0.)) ;
#230=DIRECTION('Vector Direction',(0.,0.,1.)) ;
#237=DIRECTION('Vector Direction',(0.,1.,0.)) ;
#253=DIRECTION('Axis2P3D Direction',(0.,1.,0.)) ;
#254=DIRECTION('Axis2P3D XDirection',(0.,0.,1.)) ;
#258=DIRECTION('Vector Direction',(1.,0.,0.)) ;
#265=DIRECTION('Vector Direction',(1.,0.,0.)) ;
#272=DIRECTION('Vector Direction',(0.,0.,1.)) ;
#286=DIRECTION('Axis2P3D Direction',(0.,0.,-1.)) ;
#287=DIRECTION('Axis2P3D XDirection',(0.,1.,0.)) ;
#291=DIRECTION('Vector Direction',(0.,-1.,0.)) ;
#298=DIRECTION('Vector Direction',(-1.,0.,0.)) ;
#312=DIRECTION('Axis2P3D Direction',(0.,1.,-0.)) ;
#313=DIRECTION('Axis2P3D XDirection',(-1.,0.,0.)) ;
#317=DIRECTION('Vector Direction',(0.,0.,1.)) ;
#324=DIRECTION('Vector Direction',(-1.,0.,0.)) ;
#336=DIRECTION('Axis2P3D Direction',(-1.,0.,0.)) ;
#337=DIRECTION('Axis2P3D XDirection',(0.,-1.,0.)) ;
#341=DIRECTION('Vector Direction',(0.,-1.,0.)) ;
#353=DIRECTION('Axis2P3D Direction',(0.,0.,-1.)) ;
#354=DIRECTION('Axis2P3D XDirection',(1.,0.,0.)) ;
#47=AXIS2_PLACEMENT_3D(' ',#46,$,$) ;
#54=AXIS2_PLACEMENT_3D('Plane Axis2P3D',#51,#52,#53) ;
#94=AXIS2_PLACEMENT_3D('Plane Axis2P3D',#91,#92,#93) ;
#125=AXIS2_PLACEMENT_3D('Plane Axis2P3D',#122,#123,#124) ;
#156=AXIS2_PLACEMENT_3D('Plane Axis2P3D',#153,#154,#155) ;
#187=AXIS2_PLACEMENT_3D('Plane Axis2P3D',#184,#185,#186) ;
#213=AXIS2_PLACEMENT_3D('Plane Axis2P3D',#210,#211,#212) ;
#255=AXIS2_PLACEMENT_3D('Plane Axis2P3D',#252,#253,#254) ;
#288=AXIS2_PLACEMENT_3D('Plane Axis2P3D',#285,#286,#287) ;
#314=AXIS2_PLACEMENT_3D('Plane Axis2P3D',#311,#312,#313) ;
#338=AXIS2_PLACEMENT_3D('Plane Axis2P3D',#335,#336,#337) ;
#355=AXIS2_PLACEMENT_3D('Plane Axis2P3D',#352,#353,#354) ;
#40=PRODUCT_DEFINITION_SHAPE(' ',' ',#14) ;
#31=APPROVAL_PERSON_ORGANIZATION(#25,#21,#19) ;
#25=PERSON_AND_ORGANIZATION(#22,#23) ;
#22=PERSON(' ',' ',' ',$,$,$) ;
#23=ORGANIZATION(' ',' ',' ') ;
#21=APPROVAL(#20,' ') ;
#20=APPROVAL_STATUS('not_yet_approved') ;
#19=APPROVAL_ROLE('APPROVER') ;
#13=DATE_AND_TIME(#11,#12) ;
#12=LOCAL_TIME(14,13,7.,#10) ;
#10=COORDINATED_UNIVERSAL_TIME_OFFSET(0,0,.AHEAD.) ;
#85=ORIENTED_EDGE('',*,*,#64,.F.) ;
#86=ORIENTED_EDGE('',*,*,#71,.T.) ;
#87=ORIENTED_EDGE('',*,*,#78,.T.) ;
#88=ORIENTED_EDGE('',*,*,#83,.F.) ;
#116=ORIENTED_EDGE('',*,*,#78,.F.) ;
#117=ORIENTED_EDGE('',*,*,#102,.T.) ;
#118=ORIENTED_EDGE('',*,*,#109,.T.) ;
#119=ORIENTED_EDGE('',*,*,#114,.F.) ;
#147=ORIENTED_EDGE('',*,*,#109,.F.) ;
#148=ORIENTED_EDGE('',*,*,#133,.T.) ;
#149=ORIENTED_EDGE('',*,*,#140,.T.) ;
#150=ORIENTED_EDGE('',*,*,#145,.F.) ;
#178=ORIENTED_EDGE('',*,*,#140,.F.) ;
#179=ORIENTED_EDGE('',*,*,#164,.T.) ;
#180=ORIENTED_EDGE('',*,*,#171,.T.) ;
#181=ORIENTED_EDGE('',*,*,#176,.F.) ;
#202=ORIENTED_EDGE('',*,*,#164,.F.) ;
#203=ORIENTED_EDGE('',*,*,#133,.F.) ;
#204=ORIENTED_EDGE('',*,*,#102,.F.) ;
#205=ORIENTED_EDGE('',*,*,#71,.F.) ;
#206=ORIENTED_EDGE('',*,*,#195,.F.) ;
#207=ORIENTED_EDGE('',*,*,#200,.F.) ;
#242=ORIENTED_EDGE('',*,*,#221,.T.) ;
#243=ORIENTED_EDGE('',*,*,#83,.T.) ;
#244=ORIENTED_EDGE('',*,*,#114,.T.) ;
#245=ORIENTED_EDGE('',*,*,#145,.T.) ;
#246=ORIENTED_EDGE('',*,*,#176,.T.) ;
#247=ORIENTED_EDGE('',*,*,#228,.T.) ;
#248=ORIENTED_EDGE('',*,*,#235,.T.) ;
#249=ORIENTED_EDGE('',*,*,#240,.F.) ;
#277=ORIENTED_EDGE('',*,*,#263,.F.) ;
#278=ORIENTED_EDGE('',*,*,#195,.T.) ;
#279=ORIENTED_EDGE('',*,*,#64,.T.) ;
#280=ORIENTED_EDGE('',*,*,#221,.F.) ;
#281=ORIENTED_EDGE('',*,*,#270,.F.) ;
#282=ORIENTED_EDGE('',*,*,#275,.F.) ;
#303=ORIENTED_EDGE('',*,*,#228,.F.) ;
#304=ORIENTED_EDGE('',*,*,#171,.F.) ;
#305=ORIENTED_EDGE('',*,*,#200,.T.) ;
#306=ORIENTED_EDGE('',*,*,#263,.T.) ;
#307=ORIENTED_EDGE('',*,*,#296,.F.) ;
#308=ORIENTED_EDGE('',*,*,#301,.F.) ;
#329=ORIENTED_EDGE('',*,*,#235,.F.) ;
#330=ORIENTED_EDGE('',*,*,#301,.T.) ;
#331=ORIENTED_EDGE('',*,*,#322,.T.) ;
#332=ORIENTED_EDGE('',*,*,#327,.F.) ;
#346=ORIENTED_EDGE('',*,*,#322,.F.) ;
#347=ORIENTED_EDGE('',*,*,#296,.T.) ;
#348=ORIENTED_EDGE('',*,*,#275,.T.) ;
#349=ORIENTED_EDGE('',*,*,#344,.F.) ;
#358=ORIENTED_EDGE('',*,*,#240,.T.) ;
#359=ORIENTED_EDGE('',*,*,#327,.T.) ;
#360=ORIENTED_EDGE('',*,*,#344,.T.) ;
#361=ORIENTED_EDGE('',*,*,#270,.T.) ;
#50=CLOSED_SHELL('Closed Shell',(#90,#121,#152,#183,#209,#251,#284,#310,#334,#351,#363)) ;
#58=VECTOR('Line Direction',#57,1.) ;
#67=VECTOR('Line Direction',#66,1.) ;
#74=VECTOR('Line Direction',#73,1.) ;
#81=VECTOR('Line Direction',#80,1.) ;
#98=VECTOR('Line Direction',#97,1.) ;
#105=VECTOR('Line Direction',#104,1.) ;
#112=VECTOR('Line Direction',#111,1.) ;
#129=VECTOR('Line Direction',#128,1.) ;
#136=VECTOR('Line Direction',#135,1.) ;
#143=VECTOR('Line Direction',#142,1.) ;
#160=VECTOR('Line Direction',#159,1.) ;
#167=VECTOR('Line Direction',#166,1.) ;
#174=VECTOR('Line Direction',#173,1.) ;
#191=VECTOR('Line Direction',#190,1.) ;
#198=VECTOR('Line Direction',#197,1.) ;
#217=VECTOR('Line Direction',#216,1.) ;
#224=VECTOR('Line Direction',#223,1.) ;
#231=VECTOR('Line Direction',#230,1.) ;
#238=VECTOR('Line Direction',#237,1.) ;
#259=VECTOR('Line Direction',#258,1.) ;
#266=VECTOR('Line Direction',#265,1.) ;
#273=VECTOR('Line Direction',#272,1.) ;
#292=VECTOR('Line Direction',#291,1.) ;
#299=VECTOR('Line Direction',#298,1.) ;
#318=VECTOR('Line Direction',#317,1.) ;
#325=VECTOR('Line Direction',#324,1.) ;
#342=VECTOR('Line Direction',#341,1.) ;
#365=ADVANCED_BREP_SHAPE_REPRESENTATION('NONE',(#364),#45) ;
#48=SHAPE_REPRESENTATION(' ',(#47),#45) ;
#90=ADVANCED_FACE('Corps principal',(#89),#55,.T.) ;
#121=ADVANCED_FACE('Corps principal',(#120),#95,.T.) ;
#152=ADVANCED_FACE('Corps principal',(#151),#126,.T.) ;
#183=ADVANCED_FACE('Corps principal',(#182),#157,.T.) ;
#209=ADVANCED_FACE('Corps principal',(#208),#188,.F.) ;
#251=ADVANCED_FACE('Corps principal',(#250),#214,.T.) ;
#284=ADVANCED_FACE('Corps principal',(#283),#256,.T.) ;
#310=ADVANCED_FACE('Corps principal',(#309),#289,.T.) ;
#334=ADVANCED_FACE('Corps principal',(#333),#315,.T.) ;
#351=ADVANCED_FACE('Corps principal',(#350),#339,.F.) ;
#363=ADVANCED_FACE('Corps principal',(#362),#356,.T.) ;
#4=APPLICATION_PROTOCOL_DEFINITION('international standard','config_control_design',1994,#1) ;
#32=APPROVAL_DATE_TIME(#13,#21) ;
#364=MANIFOLD_SOLID_BREP('Corps principal',#50) ;
#11=CALENDAR_DATE(2023,16,10) ;
#30=CC_DESIGN_APPROVAL(#21,(#16,#6,#14)) ;
#18=CC_DESIGN_DATE_AND_TIME_ASSIGNMENT(#13,#17,(#16)) ;
#29=CC_DESIGN_DATE_AND_TIME_ASSIGNMENT(#13,#28,(#14)) ;
#17=DATE_TIME_ROLE('classification_date') ;
#28=DATE_TIME_ROLE('creation_date') ;
#27=CC_DESIGN_PERSON_AND_ORGANIZATION_ASSIGNMENT(#25,#26,(#16)) ;
#33=CC_DESIGN_PERSON_AND_ORGANIZATION_ASSIGNMENT(#25,#34,(#6)) ;
#35=CC_DESIGN_PERSON_AND_ORGANIZATION_ASSIGNMENT(#25,#36,(#6,#14)) ;
#37=CC_DESIGN_PERSON_AND_ORGANIZATION_ASSIGNMENT(#25,#38,(#5)) ;
#26=PERSON_AND_ORGANIZATION_ROLE('classification_officer') ;
#34=PERSON_AND_ORGANIZATION_ROLE('design_supplier') ;
#36=PERSON_AND_ORGANIZATION_ROLE('creator') ;
#38=PERSON_AND_ORGANIZATION_ROLE('design_owner') ;
#39=CC_DESIGN_SECURITY_CLASSIFICATION(#16,(#6)) ;
#366=SHAPE_REPRESENTATION_RELATIONSHIP(' ',' ',#48,#365) ;
#3=DESIGN_CONTEXT(' ',#1,'design') ;
#64=EDGE_CURVE('',#61,#63,#59,.T.) ;
#71=EDGE_CURVE('',#61,#70,#68,.T.) ;
#78=EDGE_CURVE('',#70,#77,#75,.T.) ;
#83=EDGE_CURVE('',#63,#77,#82,.T.) ;
#102=EDGE_CURVE('',#70,#101,#99,.T.) ;
#109=EDGE_CURVE('',#101,#108,#106,.T.) ;
#114=EDGE_CURVE('',#77,#108,#113,.T.) ;
#133=EDGE_CURVE('',#101,#132,#130,.T.) ;
#140=EDGE_CURVE('',#132,#139,#137,.T.) ;
#145=EDGE_CURVE('',#108,#139,#144,.T.) ;
#164=EDGE_CURVE('',#132,#163,#161,.T.) ;
#171=EDGE_CURVE('',#163,#170,#168,.T.) ;
#176=EDGE_CURVE('',#139,#170,#175,.T.) ;
#195=EDGE_CURVE('',#194,#61,#192,.T.) ;
#200=EDGE_CURVE('',#163,#194,#199,.T.) ;
#221=EDGE_CURVE('',#220,#63,#218,.T.) ;
#228=EDGE_CURVE('',#170,#227,#225,.T.) ;
#235=EDGE_CURVE('',#227,#234,#232,.T.) ;
#240=EDGE_CURVE('',#220,#234,#239,.F.) ;
#263=EDGE_CURVE('',#194,#262,#260,.T.) ;
#270=EDGE_CURVE('',#269,#220,#267,.T.) ;
#275=EDGE_CURVE('',#262,#269,#274,.T.) ;
#296=EDGE_CURVE('',#295,#262,#293,.F.) ;
#301=EDGE_CURVE('',#227,#295,#300,.T.) ;
#322=EDGE_CURVE('',#295,#321,#319,.T.) ;
#327=EDGE_CURVE('',#234,#321,#326,.T.) ;
#344=EDGE_CURVE('',#321,#269,#343,.F.) ;
#84=EDGE_LOOP('',(#85,#86,#87,#88)) ;
#115=EDGE_LOOP('',(#116,#117,#118,#119)) ;
#146=EDGE_LOOP('',(#147,#148,#149,#150)) ;
#177=EDGE_LOOP('',(#178,#179,#180,#181)) ;
#201=EDGE_LOOP('',(#202,#203,#204,#205,#206,#207)) ;
#241=EDGE_LOOP('',(#242,#243,#244,#245,#246,#247,#248,#249)) ;
#276=EDGE_LOOP('',(#277,#278,#279,#280,#281,#282)) ;
#302=EDGE_LOOP('',(#303,#304,#305,#306,#307,#308)) ;
#328=EDGE_LOOP('',(#329,#330,#331,#332)) ;
#345=EDGE_LOOP('',(#346,#347,#348,#349)) ;
#357=EDGE_LOOP('',(#358,#359,#360,#361)) ;
#89=FACE_OUTER_BOUND('',#84,.T.) ;
#120=FACE_OUTER_BOUND('',#115,.T.) ;
#151=FACE_OUTER_BOUND('',#146,.T.) ;
#182=FACE_OUTER_BOUND('',#177,.T.) ;
#208=FACE_OUTER_BOUND('',#201,.T.) ;
#250=FACE_OUTER_BOUND('',#241,.T.) ;
#283=FACE_OUTER_BOUND('',#276,.T.) ;
#309=FACE_OUTER_BOUND('',#302,.T.) ;
#333=FACE_OUTER_BOUND('',#328,.T.) ;
#350=FACE_OUTER_BOUND('',#345,.T.) ;
#362=FACE_OUTER_BOUND('',#357,.T.) ;
#44=UNCERTAINTY_MEASURE_WITH_UNIT(LENGTH_MEASURE(0.005),#41,'distance_accuracy_value','CONFUSED CURVE UNCERTAINTY') ;
#59=LINE('Line',#56,#58) ;
#68=LINE('Line',#65,#67) ;
#75=LINE('Line',#72,#74) ;
#82=LINE('Line',#79,#81) ;
#99=LINE('Line',#96,#98) ;
#106=LINE('Line',#103,#105) ;
#113=LINE('Line',#110,#112) ;
#130=LINE('Line',#127,#129) ;
#137=LINE('Line',#134,#136) ;
#144=LINE('Line',#141,#143) ;
#161=LINE('Line',#158,#160) ;
#168=LINE('Line',#165,#167) ;
#175=LINE('Line',#172,#174) ;
#192=LINE('Line',#189,#191) ;
#199=LINE('Line',#196,#198) ;
#218=LINE('Line',#215,#217) ;
#225=LINE('Line',#222,#224) ;
#232=LINE('Line',#229,#231) ;
#239=LINE('Line',#236,#238) ;
#260=LINE('Line',#257,#259) ;
#267=LINE('Line',#264,#266) ;
#274=LINE('Line',#271,#273) ;
#293=LINE('Line',#290,#292) ;
#300=LINE('Line',#297,#299) ;
#319=LINE('Line',#316,#318) ;
#326=LINE('Line',#323,#325) ;
#343=LINE('Line',#340,#342) ;
#2=MECHANICAL_CONTEXT(' ',#1,'mechanical') ;
#24=PERSONAL_ADDRESS(' ',' ',' ',' ',' ',' ',' ',' ',' ',' ',' ',' ',(#22),' ') ;
#55=PLANE('',#54) ;
#95=PLANE('',#94) ;
#126=PLANE('',#125) ;
#157=PLANE('',#156) ;
#188=PLANE('',#187) ;
#214=PLANE('',#213) ;
#256=PLANE('',#255) ;
#289=PLANE('',#288) ;
#315=PLANE('',#314) ;
#339=PLANE('',#338) ;
#356=PLANE('',#355) ;
#7=PRODUCT_CATEGORY('part',$) ;
#9=PRODUCT_CATEGORY_RELATIONSHIP(' ',' ',#7,#8) ;
#6=PRODUCT_DEFINITION_FORMATION_WITH_SPECIFIED_SOURCE('',' ',#5,.NOT_KNOWN.) ;
#8=PRODUCT_RELATED_PRODUCT_CATEGORY('detail',$,(#5)) ;
#49=SHAPE_DEFINITION_REPRESENTATION(#40,#48) ;
#61=VERTEX_POINT('',#60) ;
#63=VERTEX_POINT('',#62) ;
#70=VERTEX_POINT('',#69) ;
#77=VERTEX_POINT('',#76) ;
#101=VERTEX_POINT('',#100) ;
#108=VERTEX_POINT('',#107) ;
#132=VERTEX_POINT('',#131) ;
#139=VERTEX_POINT('',#138) ;
#163=VERTEX_POINT('',#162) ;
#170=VERTEX_POINT('',#169) ;
#194=VERTEX_POINT('',#193) ;
#220=VERTEX_POINT('',#219) ;
#227=VERTEX_POINT('',#226) ;
#234=VERTEX_POINT('',#233) ;
#262=VERTEX_POINT('',#261) ;
#269=VERTEX_POINT('',#268) ;
#295=VERTEX_POINT('',#294) ;
#321=VERTEX_POINT('',#320) ;
#41=(LENGTH_UNIT()NAMED_UNIT(*)SI_UNIT(.MILLI.,.METRE.)) ;
#42=(NAMED_UNIT(*)PLANE_ANGLE_UNIT()SI_UNIT($,.RADIAN.)) ;
#43=(NAMED_UNIT(*)SI_UNIT($,.STERADIAN.)SOLID_ANGLE_UNIT()) ;
#45=(GEOMETRIC_REPRESENTATION_CONTEXT(3)GLOBAL_UNCERTAINTY_ASSIGNED_CONTEXT((#44))GLOBAL_UNIT_ASSIGNED_CONTEXT((#41,#42,#43))REPRESENTATION_CONTEXT(' ',' ')) ;
ENDSEC;
END-ISO-10303-21;
